  0
SECTION
  2
HEADER
  9
$ACADVER
  1
AC1009
  9
$INSBASE
 10
977.0715496866622
 20
680.6602678323456
 30
0.0
  9
$EXTMIN
 10
977.0715496866622
 20
680.6602678323456
 30
0.0
  9
$EXTMAX
 10
1005.396181202514
 20
725.831954734312
 30
0.0
  9
$LIMMIN
 10
-0.1060231145706343
 20
0.3456632898907824
  9
$LIMMAX
 10
419.5117558577734
 20
297.0066983923184
  9
$ORTHOMODE
 70
     1
  9
$REGENMODE
 70
     0
  9
$FILLMODE
 70
     1
  9
$QTEXTMODE
 70
     0
  9
$MIRRTEXT
 70
     0
  9
$DRAGMODE
 70
     2
  9
$LTSCALE
 40
1.0
  9
$OSMODE
 70
     0
  9
$ATTMODE
 70
     1
  9
$TEXTSIZE
 40
3.5
  9
$TRACEWID
 40
0.1
  9
$TEXTSTYLE
  7
STANDARD
  9
$CLAYER
  8
4AN
  9
$CELTYPE
  6
BYLAYER
  9
$CECOLOR
 62
   256
  9
$DIMSCALE
 40
1.0
  9
$DIMASZ
 40
2.5
  9
$DIMEXO
 40
1.0
  9
$DIMDLI
 40
8.0
  9
$DIMRND
 40
0.0
  9
$DIMDLE
 40
0.0
  9
$DIMEXE
 40
2.0
  9
$DIMTP
 40
0.1
  9
$DIMTM
 40
0.1
  9
$DIMTXT
 40
3.5
  9
$DIMCEN
 40
2.0
  9
$DIMTSZ
 40
0.0
  9
$DIMTOL
 70
     0
  9
$DIMLIM
 70
     0
  9
$DIMTIH
 70
     0
  9
$DIMTOH
 70
     0
  9
$DIMSE1
 70
     0
  9
$DIMSE2
 70
     0
  9
$DIMTAD
 70
     1
  9
$DIMZIN
 70
     8
  9
$DIMBLK
  1

  9
$DIMASO
 70
     1
  9
$DIMSHO
 70
     1
  9
$DIMPOST
  1

  9
$DIMAPOST
  1

  9
$DIMALT
 70
     0
  9
$DIMALTD
 70
     2
  9
$DIMALTF
 40
25.39999999999999
  9
$DIMLFAC
 40
1.0
  9
$DIMTOFL
 70
     1
  9
$DIMTVP
 40
0.0
  9
$DIMTIX
 70
     0
  9
$DIMSOXD
 70
     0
  9
$DIMSAH
 70
     0
  9
$DIMBLK1
  1

  9
$DIMBLK2
  1

  9
$DIMSTYLE
  2
*UNNAMED
  9
$DIMCLRD
 70
   256
  9
$DIMCLRE
 70
   256
  9
$DIMCLRT
 70
     2
  9
$DIMTFAC
 40
0.71
  9
$DIMGAP
 40
1.5
  9
$LUNITS
 70
     2
  9
$LUPREC
 70
     3
  9
$SKETCHINC
 40
0.1
  9
$FILLETRAD
 40
1.0
  9
$AUNITS
 70
     0
  9
$AUPREC
 70
     1
  9
$MENU
  1

  9
$ELEVATION
 40
0.0
  9
$PELEVATION
 40
0.0
  9
$THICKNESS
 40
0.0
  9
$LIMCHECK
 70
     0
  9
$BLIPMODE
 70
     0
  9
$CHAMFERA
 40
2.5
  9
$CHAMFERB
 40
2.5
  9
$SKPOLY
 70
     1
  9
$TDCREATE
 40
2449330.541684143
  9
$TDUPDATE
 40
2449394.638112731
  9
$TDINDWG
 40
0.0077100694
  9
$TDUSRTIMER
 40
0.0077100694
  9
$USRTIMER
 70
     1
  9
$ANGBASE
 50
0.0
  9
$ANGDIR
 70
     0
  9
$PDMODE
 70
     3
  9
$PDSIZE
 40
0.0
  9
$PLINEWID
 40
0.0
  9
$COORDS
 70
     2
  9
$SPLFRAME
 70
     0
  9
$SPLINETYPE
 70
     6
  9
$SPLINESEGS
 70
     8
  9
$ATTDIA
 70
     1
  9
$ATTREQ
 70
     1
  9
$HANDLING
 70
     0
  9
$HANDSEED
  5
A4C9
  9
$SURFTAB1
 70
     6
  9
$SURFTAB2
 70
     6
  9
$SURFTYPE
 70
     6
  9
$SURFU
 70
     6
  9
$SURFV
 70
     6
  9
$UCSNAME
  2

  9
$UCSORG
 10
0.0
 20
0.0
 30
0.0
  9
$UCSXDIR
 10
1.0
 20
0.0
 30
0.0
  9
$UCSYDIR
 10
0.0
 20
1.0
 30
0.0
  9
$PUCSNAME
  2

  9
$PUCSORG
 10
0.0
 20
0.0
 30
0.0
  9
$PUCSXDIR
 10
1.0
 20
0.0
 30
0.0
  9
$PUCSYDIR
 10
0.0
 20
1.0
 30
0.0
  9
$USERI1
 70
     0
  9
$USERI2
 70
     3
  9
$USERI3
 70
    15
  9
$USERI4
 70
     0
  9
$USERI5
 70
     0
  9
$USERR1
 40
1.0
  9
$USERR2
 40
1.0
  9
$USERR3
 40
0.0
  9
$USERR4
 40
1.0
  9
$USERR5
 40
0.0
  9
$WORLDVIEW
 70
     5
  9
$SHADEDGE
 70
     3
  9
$SHADEDIF
 70
    70
  9
$TILEMODE
 70
     1
  9
$MAXACTVP
 70
     4
  9
$PINSBASE
 10
0.0
 20
0.0
 30
0.0
  9
$PLIMCHECK
 70
     0
  9
$PEXTMIN
 10
1.000000000000000E+20
 20
1.000000000000000E+20
 30
1.000000000000000E+20
  9
$PEXTMAX
 10
-1.000000000000000E+20
 20
-1.000000000000000E+20
 30
-1.000000000000000E+20
  9
$PLIMMIN
 10
0.0
 20
0.0
  9
$PLIMMAX
 10
12.0
 20
12.0
  9
$UNITMODE
 70
     0
  9
$VISRETAIN
 70
     0
  9
$PLINEGEN
 70
     0
  9
$PSLTSCALE
 70
     0
  9
$TREEDEPTH
 70
  3020
  9
$DWGCODEPAGE
  3
undefined
  0
ENDSEC
  0
SECTION
  2
TABLES
  0
TABLE
  2
VPORT
 70
     2
  0
VPORT
  2
*ACTIVE
 70
     0
 10
0.0
 20
0.0
 11
1.0
 21
1.0
 12
1008.256340764766
 22
705.1059727028937
 13
0.0
 23
0.0
 14
7.0
 24
7.0
 15
10.0
 25
10.0
 16
0.0
 26
0.0
 36
1.0
 17
0.0
 27
0.0
 37
0.0
 40
48.89140974109604
 41
1.275675675675675
 42
50.0
 43
0.0
 44
0.0
 50
0.0
 51
0.0
 71
     0
 72
   100
 73
     1
 74
     0
 75
     0
 76
     0
 77
     0
 78
     0
  0
ENDTAB
  0
TABLE
  2
LTYPE
 70
     3
  0
LTYPE
  2
CONTINUOUS
 70
    64
  3
Solid line
 72
    65
 73
     0
 40
0.0
  0
LTYPE
  2
GEN
 70
    64
  3
----------------------
 72
    65
 73
     2
 40
10000000000.0
 49
0.0
 49
10000000000.0
  0
LTYPE
  2
ITEM-STRICHPUNKT
 70
    64
  3
__ . __ . __
 72
    65
 73
     4
 40
3.599999999999999
 49
2.399999999999999
 49
-0.6
 49
0.0
 49
-0.6
  0
ENDTAB
  0
TABLE
  2
LAYER
 70
     6
  0
LAYER
  2
0
 70
     0
 62
     7
  6
GEN
  0
LAYER
  2
ITEM_50
 70
    64
 62
     7
  6
CONTINUOUS
  0
LAYER
  2
ITEM_25
 70
    64
 62
     3
  6
CONTINUOUS
  0
LAYER
  2
ITEM_STP
 70
    64
 62
     4
  6
ITEM-STRICHPUNKT
  0
LAYER
  2
ITEM_HILFE
 70
    64
 62
     3
  6
CONTINUOUS
  0
LAYER
  2
4AN
 70
     0
 62
     3
  6
CONTINUOUS
  0
ENDTAB
  0
TABLE
  2
STYLE
 70
     1
  0
STYLE
  2
STANDARD
 70
     0
 40
0.0
 41
1.0
 50
0.0
 71
     0
 42
3.5
  3
GENISO
  4

  0
ENDTAB
  0
TABLE
  2
VIEW
 70
     0
  0
ENDTAB
  0
TABLE
  2
UCS
 70
     0
  0
ENDTAB
  0
TABLE
  2
APPID
 70
     1
  0
APPID
  2
ACAD
 70
    64
  0
ENDTAB
  0
TABLE
  2
DIMSTYLE
 70
     0
  0
ENDTAB
  0
ENDSEC
  0
SECTION
  2
BLOCKS
  0
ENDSEC
  0
SECTION
  2
ENTITIES
  0
POINT
  8
ITEM_HILFE
 10
991.2338654445883
 20
711.6696389763859
 30
0.0
  0
LINE
  8
ITEM_50
 10
991.741260881941
 20
685.0909110020168
 30
0.0
 11
993.5412608819407
 21
685.0909110020168
 31
0.0
  0
LINE
  8
ITEM_50
 10
991.7412608819411
 20
686.0909110020169
 30
0.0
 11
993.5412608819407
 21
686.0909110020168
 31
0.0
  0
LINE
  8
ITEM_50
 10
991.7412608819411
 20
685.0909110020169
 30
0.0
 11
991.7412608819411
 21
683.2909110020167
 31
0.0
  0
LINE
  8
ITEM_50
 10
990.7412608819411
 20
685.0909110020169
 30
0.0
 11
990.741260881941
 21
683.2909110020167
 31
0.0
  0
LINE
  8
ITEM_50
 10
993.5412608819407
 20
686.0909110020168
 30
0.0
 11
993.5412608819407
 21
685.0909110020166
 31
0.0
  0
LINE
  8
ITEM_50
 10
990.7412608819411
 20
683.2909110020167
 30
0.0
 11
991.7412608819411
 21
683.2909110020167
 31
0.0
  0
LINE
  8
ITEM_50
 10
990.7412608819411
 20
687.8909110020168
 30
0.0
 11
991.7412608819411
 21
687.8909110020168
 31
0.0
  0
LINE
  8
ITEM_50
 10
988.9412608819411
 20
685.0909110020168
 30
0.0
 11
990.741260881941
 21
685.0909110020168
 31
0.0
  0
LINE
  8
ITEM_50
 10
988.9412608819411
 20
686.0909110020168
 30
0.0
 11
990.7412608819411
 21
686.0909110020169
 31
0.0
  0
LINE
  8
ITEM_50
 10
991.741260881941
 20
687.8909110020168
 30
0.0
 11
991.741260881941
 21
686.0909110020168
 31
0.0
  0
LINE
  8
ITEM_50
 10
990.741260881941
 20
687.8909110020168
 30
0.0
 11
990.7412608819411
 21
686.0909110020168
 31
0.0
  0
LINE
  8
ITEM_50
 10
988.9412608819411
 20
686.0909110020168
 30
0.0
 11
988.9412608819411
 21
685.0909110020166
 31
0.0
  0
CIRCLE
  8
ITEM_50
 10
991.2412608819408
 20
685.5909110020168
 30
0.0
 40
4.0
  0
LINE
  8
ITEM_STP
 10
995.9081392244571
 20
685.5909110020168
 30
0.0
 11
986.6412370748427
 21
685.5909110020168
 31
0.0
  0
ARC
  8
ITEM_50
 10
991.2338654445882
 20
708.4955446130979
 30
0.0
 40
6.149807828870421
 50
102.527305287035
 51
130.1777695400996
  0
LINE
  8
ITEM_50
 10
989.8999422386904
 20
714.4989424187413
 30
0.0
 11
992.5677886504863
 21
714.4989424187413
 31
0.0
  0
LINE
  8
ITEM_STP
 10
991.2412608819408
 20
680.6602678323456
 30
0.0
 11
991.2412608819407
 21
690.576258376564
 31
0.0
  0
LINE
  8
ITEM_50
 10
993.3538420572575
 20
711.0609433242123
 30
0.0
 11
993.3473569776056
 21
697.8806529604621
 31
0.0
  0
LINE
  8
ITEM_25
 10
992.6296927322675
 20
709.8015531937944
 30
0.0
 11
992.6225412324853
 21
696.0927741224985
 31
0.0
  0
LINE
  8
ITEM_25
 10
992.6296927322676
 20
709.8015531937944
 30
0.0
 11
993.3538420572575
 21
711.0609433242123
 31
0.0
  0
LINE
  8
ITEM_50
 10
993.3538420572575
 20
711.0609433242123
 30
0.0
 11
993.7038420572572
 21
711.6696389763859
 31
0.0
  0
LINE
  8
ITEM_50
 10
989.1286797066237
 20
709.8015531937944
 30
0.0
 11
993.3538420572574
 21
709.8015531937945
 31
0.0
  0
LINE
  8
ITEM_25
 10
989.8528290316136
 20
709.8015531937944
 30
0.0
 11
989.1286797066237
 21
711.0609433242123
 31
0.0
  0
LINE
  8
ITEM_50
 10
989.1286797066237
 20
711.0609433242123
 30
0.0
 11
988.778679706624
 21
711.6696389763859
 31
0.0
  0
LINE
  8
ITEM_25
 10
989.8528290316137
 20
709.8015531937944
 30
0.0
 11
989.8456794051012
 21
696.0967032225313
 31
0.0
  0
LINE
  8
ITEM_50
 10
989.1297199817752
 20
711.0591341500355
 30
0.0
 11
989.1232424376266
 21
697.8787144089682
 31
0.0
  0
LINE
  8
ITEM_50
 10
987.2662474904785
 20
711.6696389763859
 30
0.0
 11
995.201483398698
 21
711.6696389763859
 31
0.0
  0
LINE
  8
ITEM_STP
 10
991.2337075943532
 20
691.8296771826943
 30
0.0
 11
991.2412608819406
 21
714.9416318221528
 31
0.0
  0
LINE
  8
ITEM_50
 10
993.3487506179
 20
697.8840906065219
 30
0.0
 11
991.2349067579893
 21
692.6699424187412
 31
0.0
  0
LINE
  8
ITEM_50
 10
991.2349067579893
 20
692.6699424187413
 30
0.0
 11
989.1232424376266
 21
697.8787144089682
 31
0.0
  0
LINE
  8
ITEM_50
 10
987.2662474904785
 20
711.6696389763859
 30
0.0
 11
987.2662474904784
 21
713.1942831781026
 31
0.0
  0
LINE
  8
ITEM_50
 10
995.201483398698
 20
711.6696389763859
 30
0.0
 11
995.2014833986984
 21
713.1942831781021
 31
0.0
  0
ARC
  8
ITEM_50
 10
991.2338654445882
 20
708.4955446130979
 30
0.0
 40
6.149807828870421
 50
49.82223045989501
 51
77.47269471296498
  0
LINE
  8
ITEM_25
 10
987.9541203161165
 20
713.1294474844102
 30
0.0
 11
994.4635088943332
 21
713.1294474844102
 31
0.0
  0
ENDSEC
  0
EOF
